loading...
   
  LİNKİN PARK FAN CLUB
  NUMB AKORU
 

e--------------------5----4---------------------5----4----------------------------
b-------5-----7------------------------5------------------5---------------5-------
g--6------6------------------------6------6---------------------------6-------6---
d---------------------------------------------------------------------------------
a---------------------------------------------------------------------------------
e---------------------------------------------------------------------------------

2.gitar
e--------------------------------
b--------------------------------
g--------------------------------
d--------------------------------
a--4-------5-------7-------2-----
e--2-------5-------7-------2-----
Oylar:

Oy Sayısı: 3
 
  Dönemlere göre oylar
  Son 7 Gün 0 0 0 0 0 0.00
  Son 1 Ay 0 0 0 1 0 1.33
  Son 1 Sene 0 0 0 1 2 4.67
  Tümü 0 0 0 1 2 4.67
1 2 3 4 5 ORT
Oy Toplamları
1 2 3 4 5
 

 
 



Create Your Custom Message

 
 
=> Sen de ücretsiz bir internet sitesi kurmak ister misin? O zaman burayı tıkla! <=



Create a Myspace LED Scroller